ISO-10303-21;
HEADER;
/* Generated by software containing ST-Developer
 * from STEP Tools, Inc. (www.steptools.com) 
 */
/* OPTION: using custom schema-name function */

FILE_DESCRIPTION(
/* description */ (''),
/* implementation_level */ '2;1');

FILE_NAME(
/* name */ '6W-350x2-01.stp',
/* time_stamp */ '2021-06-15T09:35:07+02:00',
/* author */ (''),
/* organization */ (''),
/* preprocessor_version */ 'ST-DEVELOPER v18.1',
/* originating_system */ 'SIEMENS PLM Software NX 1965',
/* authorisation */ '');

FILE_SCHEMA (('AP203_CONFIGURATION_CONTROLLED_3D_DESIGN_OF_MECHANICAL_PARTS_AND_ASSEMBLIES_MIM_LF { 1 0 10303 403 2 1 2}'));
ENDSEC;

DATA;
#10=PROPERTY_DEFINITION_REPRESENTATION(#14,#12);
#11=PROPERTY_DEFINITION_REPRESENTATION(#15,#13);
#12=REPRESENTATION('',(#16),#761);
#13=REPRESENTATION('',(#17),#761);
#14=PROPERTY_DEFINITION('pmi validation property','',#73);
#15=PROPERTY_DEFINITION('pmi validation property','',#73);
#16=VALUE_REPRESENTATION_ITEM('number of annotations',COUNT_MEASURE(0.));
#17=VALUE_REPRESENTATION_ITEM('number of views',COUNT_MEASURE(0.));
#18=SHAPE_REPRESENTATION_RELATIONSHIP('None',
'relationship between hoff119049B9q5zx-None and hoff119049B9q5zx-None',
#84,#19);
#19=ADVANCED_BREP_SHAPE_REPRESENTATION('hoff119049B9q5zx-None',(#103,#104),
#761);
#20=APPLIED_APPROVAL_ASSIGNMENT(#32,(#74));
#21=APPLIED_APPROVAL_ASSIGNMENT(#33,(#76));
#22=APPLIED_APPROVAL_ASSIGNMENT(#34,(#46));
#23=APPROVAL_PERSON_ORGANIZATION(#38,#32,#26);
#24=APPROVAL_PERSON_ORGANIZATION(#39,#33,#27);
#25=APPROVAL_PERSON_ORGANIZATION(#40,#34,#28);
#26=APPROVAL_ROLE('approver');
#27=APPROVAL_ROLE('approver');
#28=APPROVAL_ROLE('approver');
#29=APPROVAL_DATE_TIME(#54,#32);
#30=APPROVAL_DATE_TIME(#55,#33);
#31=APPROVAL_DATE_TIME(#56,#34);
#32=APPROVAL(#35,' ');
#33=APPROVAL(#36,' ');
#34=APPROVAL(#37,' ');
#35=APPROVAL_STATUS('not_yet_approved');
#36=APPROVAL_STATUS('not_yet_approved');
#37=APPROVAL_STATUS('not_yet_approved');
#38=PERSON_AND_ORGANIZATION(#44,#41);
#39=PERSON_AND_ORGANIZATION(#44,#42);
#40=PERSON_AND_ORGANIZATION(#44,#43);
#41=ORGANIZATION(' ',' ',' ');
#42=ORGANIZATION(' ',' ',' ');
#43=ORGANIZATION(' ',' ',' ');
#44=PERSON(' ',' ',' ',(' '),$,$);
#45=APPLIED_SECURITY_CLASSIFICATION_ASSIGNMENT(#46,(#76));
#46=SECURITY_CLASSIFICATION(' ',' ',#47);
#47=SECURITY_CLASSIFICATION_LEVEL('confidential');
#48=APPLIED_DATE_AND_TIME_ASSIGNMENT(#52,#50,(#74));
#49=APPLIED_DATE_AND_TIME_ASSIGNMENT(#53,#51,(#46));
#50=DATE_TIME_ROLE('creation_date');
#51=DATE_TIME_ROLE('classification_date');
#52=DATE_AND_TIME(#67,#57);
#53=DATE_AND_TIME(#68,#58);
#54=DATE_AND_TIME(#69,#59);
#55=DATE_AND_TIME(#70,#60);
#56=DATE_AND_TIME(#71,#61);
#57=LOCAL_TIME(0,0,0.,#62);
#58=LOCAL_TIME(0,0,0.,#63);
#59=LOCAL_TIME(0,0,0.,#64);
#60=LOCAL_TIME(0,0,0.,#65);
#61=LOCAL_TIME(0,0,0.,#66);
#62=COORDINATED_UNIVERSAL_TIME_OFFSET(0,0,.BEHIND.);
#63=COORDINATED_UNIVERSAL_TIME_OFFSET(0,0,.BEHIND.);
#64=COORDINATED_UNIVERSAL_TIME_OFFSET(0,0,.BEHIND.);
#65=COORDINATED_UNIVERSAL_TIME_OFFSET(0,0,.BEHIND.);
#66=COORDINATED_UNIVERSAL_TIME_OFFSET(0,0,.BEHIND.);
#67=CALENDAR_DATE(0,1,1);
#68=CALENDAR_DATE(0,1,1);
#69=CALENDAR_DATE(0,1,1);
#70=CALENDAR_DATE(0,1,1);
#71=CALENDAR_DATE(0,1,1);
#72=SHAPE_DEFINITION_REPRESENTATION(#73,#84);
#73=PRODUCT_DEFINITION_SHAPE('','',#74);
#74=PRODUCT_DEFINITION(' ','',#76,#75);
#75=PRODUCT_DEFINITION_CONTEXT('part definition',#83,'design');
#76=PRODUCT_DEFINITION_FORMATION_WITH_SPECIFIED_SOURCE(' ',' ',#78,
 .NOT_KNOWN.);
#77=PRODUCT_RELATED_PRODUCT_CATEGORY('detail','',(#78));
#78=PRODUCT('hoff119049B9q5zx','hoff119049B9q5zx',' ',(#81));
#79=PRODUCT_CATEGORY('part',' ');
#80=PRODUCT_CATEGORY(' ','');
#81=PRODUCT_CONTEXT(' ',#83,'mechanical');
#82=APPLICATION_PROTOCOL_DEFINITION('international standard',
'config_control_design',2010,#83);
#83=APPLICATION_CONTEXT(
'configuration controlled 3D designs of mechanical parts and assemblie
s');
#84=SHAPE_REPRESENTATION('hoff119049B9q5zx-None',(#463),#761);
#85=VERTEX_LOOP('',#398);
#86=PRESENTATION_LAYER_ASSIGNMENT('1','Layer 1',(#103,#104));
#87=STYLED_ITEM('',(#89),#103);
#88=STYLED_ITEM('',(#90),#104);
#89=PRESENTATION_STYLE_ASSIGNMENT((#91));
#90=PRESENTATION_STYLE_ASSIGNMENT((#92));
#91=SURFACE_STYLE_USAGE(.BOTH.,#93);
#92=SURFACE_STYLE_USAGE(.BOTH.,#94);
#93=SURFACE_SIDE_STYLE('',(#95));
#94=SURFACE_SIDE_STYLE('',(#96));
#95=SURFACE_STYLE_FILL_AREA(#97);
#96=SURFACE_STYLE_FILL_AREA(#98);
#97=FILL_AREA_STYLE('',(#99));
#98=FILL_AREA_STYLE('',(#100));
#99=FILL_AREA_STYLE_COLOUR('',#101);
#100=FILL_AREA_STYLE_COLOUR('',#102);
#101=COLOUR_RGB('iron gray',0.298039215686275,0.298039215686275,0.298039215686275);
#102=COLOUR_RGB('medium steel',0.611764705882353,0.658823529411765,0.670588235294118);
#103=MANIFOLD_SOLID_BREP('',#105);
#104=MANIFOLD_SOLID_BREP('',#106);
#105=CLOSED_SHELL('',(#132,#133,#134,#135,#136,#137,#138,#139,#140,#141,
#142,#143,#144,#145,#146,#147,#148,#149,#150,#151,#152,#153,#154,#155,#156,
#157,#158,#159,#160,#161,#162,#163));
#106=CLOSED_SHELL('',(#164));
#107=CYLINDRICAL_SURFACE('',#476,126.);
#108=CYLINDRICAL_SURFACE('',#511,126.);
#109=CONICAL_SURFACE('',#472,131.142088545995,32.9149756983647);
#110=CONICAL_SURFACE('',#489,118.09909501328,12.);
#111=CONICAL_SURFACE('',#507,131.142088545995,32.9149756983647);
#112=CONICAL_SURFACE('',#524,118.09909501328,12.);
#113=TOROIDAL_SURFACE('',#468,134.5,5.);
#114=TOROIDAL_SURFACE('',#470,134.5,4.);
#115=TOROIDAL_SURFACE('',#474,128.,1.99999999999999);
#116=TOROIDAL_SURFACE('',#478,138.,12.);
#117=TOROIDAL_SURFACE('',#480,138.,37.);
#118=TOROIDAL_SURFACE('',#483,138.,33.);
#119=TOROIDAL_SURFACE('',#487,137.592683702897,24.);
#120=TOROIDAL_SURFACE('',#490,126.35870419917,6.);
#121=TOROIDAL_SURFACE('',#493,130.5,10.5);
#122=TOROIDAL_SURFACE('',#496,130.5,6.50000000000001);
#123=TOROIDAL_SURFACE('',#503,134.5,5.);
#124=TOROIDAL_SURFACE('',#505,134.5,4.);
#125=TOROIDAL_SURFACE('',#509,128.,1.99999999999999);
#126=TOROIDAL_SURFACE('',#513,138.,12.);
#127=TOROIDAL_SURFACE('',#515,138.,37.);
#128=TOROIDAL_SURFACE('',#518,138.,33.);
#129=TOROIDAL_SURFACE('',#522,137.592683702897,24.);
#130=TOROIDAL_SURFACE('',#525,126.35870419917,6.);
#131=TOROIDAL_SURFACE('',#528,130.5,6.5);
#132=ADVANCED_FACE('',(#173,#174),#165,.T.);
#133=ADVANCED_FACE('',(#175,#176),#113,.T.);
#134=ADVANCED_FACE('',(#177,#178),#114,.T.);
#135=ADVANCED_FACE('',(#179,#180),#109,.F.);
#136=ADVANCED_FACE('',(#181,#182),#115,.F.);
#137=ADVANCED_FACE('',(#183,#184),#107,.T.);
#138=ADVANCED_FACE('',(#185,#186),#116,.F.);
#139=ADVANCED_FACE('',(#187,#188),#117,.T.);
#140=ADVANCED_FACE('',(#189,#190),#118,.F.);
#141=ADVANCED_FACE('',(#191,#192),#166,.T.);
#142=ADVANCED_FACE('',(#193,#194),#119,.T.);
#143=ADVANCED_FACE('',(#195,#196),#110,.F.);
#144=ADVANCED_FACE('',(#197,#198),#120,.T.);
#145=ADVANCED_FACE('',(#199,#200),#121,.T.);
#146=ADVANCED_FACE('',(#201,#202),#122,.F.);
#147=ADVANCED_FACE('',(#203,#204),#167,.F.);
#148=ADVANCED_FACE('',(#205,#206),#168,.F.);
#149=ADVANCED_FACE('',(#207,#208),#169,.T.);
#150=ADVANCED_FACE('',(#209,#210),#123,.T.);
#151=ADVANCED_FACE('',(#211,#212),#124,.T.);
#152=ADVANCED_FACE('',(#213,#214),#111,.F.);
#153=ADVANCED_FACE('',(#215,#216),#125,.F.);
#154=ADVANCED_FACE('',(#217,#218),#108,.T.);
#155=ADVANCED_FACE('',(#219,#220),#126,.F.);
#156=ADVANCED_FACE('',(#221,#222),#127,.T.);
#157=ADVANCED_FACE('',(#223,#224),#128,.F.);
#158=ADVANCED_FACE('',(#225,#226),#170,.T.);
#159=ADVANCED_FACE('',(#227,#228),#129,.T.);
#160=ADVANCED_FACE('',(#229,#230),#112,.F.);
#161=ADVANCED_FACE('',(#231,#232),#130,.T.);
#162=ADVANCED_FACE('',(#233,#234),#171,.F.);
#163=ADVANCED_FACE('',(#235,#236),#172,.F.);
#164=ADVANCED_FACE('',(#237),#131,.T.);
#165=PLANE('',#466);
#166=PLANE('',#485);
#167=PLANE('',#497);
#168=PLANE('',#498);
#169=PLANE('',#501);
#170=PLANE('',#520);
#171=PLANE('',#526);
#172=PLANE('',#527);
#173=FACE_BOUND('',#238,.T.);
#174=FACE_BOUND('',#239,.T.);
#175=FACE_BOUND('',#240,.T.);
#176=FACE_BOUND('',#241,.T.);
#177=FACE_BOUND('',#242,.T.);
#178=FACE_BOUND('',#243,.T.);
#179=FACE_BOUND('',#244,.T.);
#180=FACE_BOUND('',#245,.T.);
#181=FACE_BOUND('',#246,.T.);
#182=FACE_BOUND('',#247,.T.);
#183=FACE_BOUND('',#248,.T.);
#184=FACE_BOUND('',#249,.T.);
#185=FACE_BOUND('',#250,.T.);
#186=FACE_BOUND('',#251,.T.);
#187=FACE_BOUND('',#252,.T.);
#188=FACE_BOUND('',#253,.T.);
#189=FACE_BOUND('',#254,.T.);
#190=FACE_BOUND('',#255,.T.);
#191=FACE_BOUND('',#256,.T.);
#192=FACE_BOUND('',#257,.T.);
#193=FACE_BOUND('',#258,.T.);
#194=FACE_BOUND('',#259,.T.);
#195=FACE_BOUND('',#260,.T.);
#196=FACE_BOUND('',#261,.T.);
#197=FACE_BOUND('',#262,.T.);
#198=FACE_BOUND('',#263,.T.);
#199=FACE_BOUND('',#264,.T.);
#200=FACE_BOUND('',#265,.T.);
#201=FACE_BOUND('',#266,.T.);
#202=FACE_BOUND('',#267,.T.);
#203=FACE_BOUND('',#268,.T.);
#204=FACE_BOUND('',#269,.T.);
#205=FACE_BOUND('',#270,.T.);
#206=FACE_BOUND('',#271,.T.);
#207=FACE_BOUND('',#272,.T.);
#208=FACE_BOUND('',#273,.T.);
#209=FACE_BOUND('',#274,.T.);
#210=FACE_BOUND('',#275,.T.);
#211=FACE_BOUND('',#276,.T.);
#212=FACE_BOUND('',#277,.T.);
#213=FACE_BOUND('',#278,.T.);
#214=FACE_BOUND('',#279,.T.);
#215=FACE_BOUND('',#280,.T.);
#216=FACE_BOUND('',#281,.T.);
#217=FACE_BOUND('',#282,.T.);
#218=FACE_BOUND('',#283,.T.);
#219=FACE_BOUND('',#284,.T.);
#220=FACE_BOUND('',#285,.T.);
#221=FACE_BOUND('',#286,.T.);
#222=FACE_BOUND('',#287,.T.);
#223=FACE_BOUND('',#288,.T.);
#224=FACE_BOUND('',#289,.T.);
#225=FACE_BOUND('',#290,.T.);
#226=FACE_BOUND('',#291,.T.);
#227=FACE_BOUND('',#292,.T.);
#228=FACE_BOUND('',#293,.T.);
#229=FACE_BOUND('',#294,.T.);
#230=FACE_BOUND('',#295,.T.);
#231=FACE_BOUND('',#296,.T.);
#232=FACE_BOUND('',#297,.T.);
#233=FACE_BOUND('',#298,.T.);
#234=FACE_BOUND('',#299,.T.);
#235=FACE_BOUND('',#300,.T.);
#236=FACE_BOUND('',#301,.T.);
#237=FACE_BOUND('',#85,.T.);
#238=EDGE_LOOP('',(#302));
#239=EDGE_LOOP('',(#303));
#240=EDGE_LOOP('',(#304));
#241=EDGE_LOOP('',(#305));
#242=EDGE_LOOP('',(#306));
#243=EDGE_LOOP('',(#307));
#244=EDGE_LOOP('',(#308));
#245=EDGE_LOOP('',(#309));
#246=EDGE_LOOP('',(#310));
#247=EDGE_LOOP('',(#311));
#248=EDGE_LOOP('',(#312));
#249=EDGE_LOOP('',(#313));
#250=EDGE_LOOP('',(#314));
#251=EDGE_LOOP('',(#315));
#252=EDGE_LOOP('',(#316));
#253=EDGE_LOOP('',(#317));
#254=EDGE_LOOP('',(#318));
#255=EDGE_LOOP('',(#319));
#256=EDGE_LOOP('',(#320));
#257=EDGE_LOOP('',(#321));
#258=EDGE_LOOP('',(#322));
#259=EDGE_LOOP('',(#323));
#260=EDGE_LOOP('',(#324));
#261=EDGE_LOOP('',(#325));
#262=EDGE_LOOP('',(#326));
#263=EDGE_LOOP('',(#327));
#264=EDGE_LOOP('',(#328));
#265=EDGE_LOOP('',(#329));
#266=EDGE_LOOP('',(#330));
#267=EDGE_LOOP('',(#331));
#268=EDGE_LOOP('',(#332));
#269=EDGE_LOOP('',(#333));
#270=EDGE_LOOP('',(#334));
#271=EDGE_LOOP('',(#335));
#272=EDGE_LOOP('',(#336));
#273=EDGE_LOOP('',(#337));
#274=EDGE_LOOP('',(#338));
#275=EDGE_LOOP('',(#339));
#276=EDGE_LOOP('',(#340));
#277=EDGE_LOOP('',(#341));
#278=EDGE_LOOP('',(#342));
#279=EDGE_LOOP('',(#343));
#280=EDGE_LOOP('',(#344));
#281=EDGE_LOOP('',(#345));
#282=EDGE_LOOP('',(#346));
#283=EDGE_LOOP('',(#347));
#284=EDGE_LOOP('',(#348));
#285=EDGE_LOOP('',(#349));
#286=EDGE_LOOP('',(#350));
#287=EDGE_LOOP('',(#351));
#288=EDGE_LOOP('',(#352));
#289=EDGE_LOOP('',(#353));
#290=EDGE_LOOP('',(#354));
#291=EDGE_LOOP('',(#355));
#292=EDGE_LOOP('',(#356));
#293=EDGE_LOOP('',(#357));
#294=EDGE_LOOP('',(#358));
#295=EDGE_LOOP('',(#359));
#296=EDGE_LOOP('',(#360));
#297=EDGE_LOOP('',(#361));
#298=EDGE_LOOP('',(#362));
#299=EDGE_LOOP('',(#363));
#300=EDGE_LOOP('',(#364));
#301=EDGE_LOOP('',(#365));
#302=ORIENTED_EDGE('',*,*,#399,.T.);
#303=ORIENTED_EDGE('',*,*,#400,.T.);
#304=ORIENTED_EDGE('',*,*,#401,.T.);
#305=ORIENTED_EDGE('',*,*,#400,.F.);
#306=ORIENTED_EDGE('',*,*,#402,.T.);
#307=ORIENTED_EDGE('',*,*,#401,.F.);
#308=ORIENTED_EDGE('',*,*,#403,.T.);
#309=ORIENTED_EDGE('',*,*,#402,.F.);
#310=ORIENTED_EDGE('',*,*,#404,.T.);
#311=ORIENTED_EDGE('',*,*,#403,.F.);
#312=ORIENTED_EDGE('',*,*,#405,.T.);
#313=ORIENTED_EDGE('',*,*,#404,.F.);
#314=ORIENTED_EDGE('',*,*,#406,.T.);
#315=ORIENTED_EDGE('',*,*,#405,.F.);
#316=ORIENTED_EDGE('',*,*,#406,.F.);
#317=ORIENTED_EDGE('',*,*,#407,.T.);
#318=ORIENTED_EDGE('',*,*,#408,.T.);
#319=ORIENTED_EDGE('',*,*,#409,.F.);
#320=ORIENTED_EDGE('',*,*,#410,.T.);
#321=ORIENTED_EDGE('',*,*,#408,.F.);
#322=ORIENTED_EDGE('',*,*,#411,.T.);
#323=ORIENTED_EDGE('',*,*,#410,.F.);
#324=ORIENTED_EDGE('',*,*,#412,.T.);
#325=ORIENTED_EDGE('',*,*,#411,.F.);
#326=ORIENTED_EDGE('',*,*,#399,.F.);
#327=ORIENTED_EDGE('',*,*,#412,.F.);
#328=ORIENTED_EDGE('',*,*,#413,.T.);
#329=ORIENTED_EDGE('',*,*,#414,.T.);
#330=ORIENTED_EDGE('',*,*,#415,.F.);
#331=ORIENTED_EDGE('',*,*,#416,.F.);
#332=ORIENTED_EDGE('',*,*,#407,.F.);
#333=ORIENTED_EDGE('',*,*,#415,.T.);
#334=ORIENTED_EDGE('',*,*,#413,.F.);
#335=ORIENTED_EDGE('',*,*,#409,.T.);
#336=ORIENTED_EDGE('',*,*,#417,.T.);
#337=ORIENTED_EDGE('',*,*,#418,.T.);
#338=ORIENTED_EDGE('',*,*,#419,.T.);
#339=ORIENTED_EDGE('',*,*,#418,.F.);
#340=ORIENTED_EDGE('',*,*,#420,.T.);
#341=ORIENTED_EDGE('',*,*,#419,.F.);
#342=ORIENTED_EDGE('',*,*,#421,.T.);
#343=ORIENTED_EDGE('',*,*,#420,.F.);
#344=ORIENTED_EDGE('',*,*,#422,.T.);
#345=ORIENTED_EDGE('',*,*,#421,.F.);
#346=ORIENTED_EDGE('',*,*,#423,.T.);
#347=ORIENTED_EDGE('',*,*,#422,.F.);
#348=ORIENTED_EDGE('',*,*,#424,.T.);
#349=ORIENTED_EDGE('',*,*,#423,.F.);
#350=ORIENTED_EDGE('',*,*,#424,.F.);
#351=ORIENTED_EDGE('',*,*,#425,.T.);
#352=ORIENTED_EDGE('',*,*,#426,.T.);
#353=ORIENTED_EDGE('',*,*,#427,.F.);
#354=ORIENTED_EDGE('',*,*,#428,.T.);
#355=ORIENTED_EDGE('',*,*,#426,.F.);
#356=ORIENTED_EDGE('',*,*,#429,.T.);
#357=ORIENTED_EDGE('',*,*,#428,.F.);
#358=ORIENTED_EDGE('',*,*,#430,.T.);
#359=ORIENTED_EDGE('',*,*,#429,.F.);
#360=ORIENTED_EDGE('',*,*,#417,.F.);
#361=ORIENTED_EDGE('',*,*,#430,.F.);
#362=ORIENTED_EDGE('',*,*,#425,.F.);
#363=ORIENTED_EDGE('',*,*,#416,.T.);
#364=ORIENTED_EDGE('',*,*,#414,.F.);
#365=ORIENTED_EDGE('',*,*,#427,.T.);
#366=VERTEX_POINT('',#663);
#367=VERTEX_POINT('',#665);
#368=VERTEX_POINT('',#668);
#369=VERTEX_POINT('',#671);
#370=VERTEX_POINT('',#674);
#371=VERTEX_POINT('',#677);
#372=VERTEX_POINT('',#680);
#373=VERTEX_POINT('',#683);
#374=VERTEX_POINT('',#686);
#375=VERTEX_POINT('',#689);
#376=VERTEX_POINT('',#691);
#377=VERTEX_POINT('',#694);
#378=VERTEX_POINT('',#697);
#379=VERTEX_POINT('',#700);
#380=VERTEX_POINT('',#704);
#381=VERTEX_POINT('',#706);
#382=VERTEX_POINT('',#709);
#383=VERTEX_POINT('',#711);
#384=VERTEX_POINT('',#716);
#385=VERTEX_POINT('',#718);
#386=VERTEX_POINT('',#721);
#387=VERTEX_POINT('',#724);
#388=VERTEX_POINT('',#727);
#389=VERTEX_POINT('',#730);
#390=VERTEX_POINT('',#733);
#391=VERTEX_POINT('',#736);
#392=VERTEX_POINT('',#739);
#393=VERTEX_POINT('',#742);
#394=VERTEX_POINT('',#744);
#395=VERTEX_POINT('',#747);
#396=VERTEX_POINT('',#750);
#397=VERTEX_POINT('',#753);
#398=VERTEX_POINT('',#758);
#399=EDGE_CURVE('',#366,#366,#431,.T.);
#400=EDGE_CURVE('',#367,#367,#432,.T.);
#401=EDGE_CURVE('',#368,#368,#433,.T.);
#402=EDGE_CURVE('',#369,#369,#434,.T.);
#403=EDGE_CURVE('',#370,#370,#435,.T.);
#404=EDGE_CURVE('',#371,#371,#436,.T.);
#405=EDGE_CURVE('',#372,#372,#437,.T.);
#406=EDGE_CURVE('',#373,#373,#438,.T.);
#407=EDGE_CURVE('',#374,#374,#439,.T.);
#408=EDGE_CURVE('',#375,#375,#440,.T.);
#409=EDGE_CURVE('',#376,#376,#441,.T.);
#410=EDGE_CURVE('',#377,#377,#442,.T.);
#411=EDGE_CURVE('',#378,#378,#443,.T.);
#412=EDGE_CURVE('',#379,#379,#444,.T.);
#413=EDGE_CURVE('',#380,#380,#445,.T.);
#414=EDGE_CURVE('',#381,#381,#446,.T.);
#415=EDGE_CURVE('',#382,#382,#447,.T.);
#416=EDGE_CURVE('',#383,#383,#448,.T.);
#417=EDGE_CURVE('',#384,#384,#449,.T.);
#418=EDGE_CURVE('',#385,#385,#450,.T.);
#419=EDGE_CURVE('',#386,#386,#451,.T.);
#420=EDGE_CURVE('',#387,#387,#452,.T.);
#421=EDGE_CURVE('',#388,#388,#453,.T.);
#422=EDGE_CURVE('',#389,#389,#454,.T.);
#423=EDGE_CURVE('',#390,#390,#455,.T.);
#424=EDGE_CURVE('',#391,#391,#456,.T.);
#425=EDGE_CURVE('',#392,#392,#457,.T.);
#426=EDGE_CURVE('',#393,#393,#458,.T.);
#427=EDGE_CURVE('',#394,#394,#459,.T.);
#428=EDGE_CURVE('',#395,#395,#460,.T.);
#429=EDGE_CURVE('',#396,#396,#461,.T.);
#430=EDGE_CURVE('',#397,#397,#462,.T.);
#431=CIRCLE('',#464,126.35870419917);
#432=CIRCLE('',#465,134.5);
#433=CIRCLE('',#467,134.5);
#434=CIRCLE('',#469,131.142088545995);
#435=CIRCLE('',#471,129.678955727003);
#436=CIRCLE('',#473,126.);
#437=CIRCLE('',#475,126.);
#438=CIRCLE('',#477,138.);
#439=CIRCLE('',#479,138.);
#440=CIRCLE('',#481,138.);
#441=CIRCLE('',#482,138.);
#442=CIRCLE('',#484,137.592683702897);
#443=CIRCLE('',#486,118.09909501328);
#444=CIRCLE('',#488,120.489818594767);
#445=CIRCLE('',#491,130.5);
#446=CIRCLE('',#492,130.5);
#447=CIRCLE('',#494,130.5);
#448=CIRCLE('',#495,130.5);
#449=CIRCLE('',#499,126.35870419917);
#450=CIRCLE('',#500,134.5);
#451=CIRCLE('',#502,134.5);
#452=CIRCLE('',#504,131.142088545995);
#453=CIRCLE('',#506,129.678955727003);
#454=CIRCLE('',#508,126.);
#455=CIRCLE('',#510,126.);
#456=CIRCLE('',#512,138.);
#457=CIRCLE('',#514,138.);
#458=CIRCLE('',#516,138.);
#459=CIRCLE('',#517,138.);
#460=CIRCLE('',#519,137.592683702897);
#461=CIRCLE('',#521,118.09909501328);
#462=CIRCLE('',#523,120.489818594767);
#463=AXIS2_PLACEMENT_3D('',#661,#529,#530);
#464=AXIS2_PLACEMENT_3D('',#662,#531,#532);
#465=AXIS2_PLACEMENT_3D('',#664,#533,#534);
#466=AXIS2_PLACEMENT_3D('',#666,#535,#536);
#467=AXIS2_PLACEMENT_3D('',#667,#537,#538);
#468=AXIS2_PLACEMENT_3D('',#669,#539,#540);
#469=AXIS2_PLACEMENT_3D('',#670,#541,#542);
#470=AXIS2_PLACEMENT_3D('',#672,#543,#544);
#471=AXIS2_PLACEMENT_3D('',#673,#545,#546);
#472=AXIS2_PLACEMENT_3D('',#675,#547,#548);
#473=AXIS2_PLACEMENT_3D('',#676,#549,#550);
#474=AXIS2_PLACEMENT_3D('',#678,#551,#552);
#475=AXIS2_PLACEMENT_3D('',#679,#553,#554);
#476=AXIS2_PLACEMENT_3D('',#681,#555,#556);
#477=AXIS2_PLACEMENT_3D('',#682,#557,#558);
#478=AXIS2_PLACEMENT_3D('',#684,#559,#560);
#479=AXIS2_PLACEMENT_3D('',#685,#561,#562);
#480=AXIS2_PLACEMENT_3D('',#687,#563,#564);
#481=AXIS2_PLACEMENT_3D('',#688,#565,#566);
#482=AXIS2_PLACEMENT_3D('',#690,#567,#568);
#483=AXIS2_PLACEMENT_3D('',#692,#569,#570);
#484=AXIS2_PLACEMENT_3D('',#693,#571,#572);
#485=AXIS2_PLACEMENT_3D('',#695,#573,#574);
#486=AXIS2_PLACEMENT_3D('',#696,#575,#576);
#487=AXIS2_PLACEMENT_3D('',#698,#577,#578);
#488=AXIS2_PLACEMENT_3D('',#699,#579,#580);
#489=AXIS2_PLACEMENT_3D('',#701,#581,#582);
#490=AXIS2_PLACEMENT_3D('',#702,#583,#584);
#491=AXIS2_PLACEMENT_3D('',#703,#585,#586);
#492=AXIS2_PLACEMENT_3D('',#705,#587,#588);
#493=AXIS2_PLACEMENT_3D('',#707,#589,#590);
#494=AXIS2_PLACEMENT_3D('',#708,#591,#592);
#495=AXIS2_PLACEMENT_3D('',#710,#593,#594);
#496=AXIS2_PLACEMENT_3D('',#712,#595,#596);
#497=AXIS2_PLACEMENT_3D('',#713,#597,#598);
#498=AXIS2_PLACEMENT_3D('',#714,#599,#600);
#499=AXIS2_PLACEMENT_3D('',#715,#601,#602);
#500=AXIS2_PLACEMENT_3D('',#717,#603,#604);
#501=AXIS2_PLACEMENT_3D('',#719,#605,#606);
#502=AXIS2_PLACEMENT_3D('',#720,#607,#608);
#503=AXIS2_PLACEMENT_3D('',#722,#609,#610);
#504=AXIS2_PLACEMENT_3D('',#723,#611,#612);
#505=AXIS2_PLACEMENT_3D('',#725,#613,#614);
#506=AXIS2_PLACEMENT_3D('',#726,#615,#616);
#507=AXIS2_PLACEMENT_3D('',#728,#617,#618);
#508=AXIS2_PLACEMENT_3D('',#729,#619,#620);
#509=AXIS2_PLACEMENT_3D('',#731,#621,#622);
#510=AXIS2_PLACEMENT_3D('',#732,#623,#624);
#511=AXIS2_PLACEMENT_3D('',#734,#625,#626);
#512=AXIS2_PLACEMENT_3D('',#735,#627,#628);
#513=AXIS2_PLACEMENT_3D('',#737,#629,#630);
#514=AXIS2_PLACEMENT_3D('',#738,#631,#632);
#515=AXIS2_PLACEMENT_3D('',#740,#633,#634);
#516=AXIS2_PLACEMENT_3D('',#741,#635,#636);
#517=AXIS2_PLACEMENT_3D('',#743,#637,#638);
#518=AXIS2_PLACEMENT_3D('',#745,#639,#640);
#519=AXIS2_PLACEMENT_3D('',#746,#641,#642);
#520=AXIS2_PLACEMENT_3D('',#748,#643,#644);
#521=AXIS2_PLACEMENT_3D('',#749,#645,#646);
#522=AXIS2_PLACEMENT_3D('',#751,#647,#648);
#523=AXIS2_PLACEMENT_3D('',#752,#649,#650);
#524=AXIS2_PLACEMENT_3D('',#754,#651,#652);
#525=AXIS2_PLACEMENT_3D('',#755,#653,#654);
#526=AXIS2_PLACEMENT_3D('',#756,#655,#656);
#527=AXIS2_PLACEMENT_3D('',#757,#657,#658);
#528=AXIS2_PLACEMENT_3D('',#759,#659,#660);
#529=DIRECTION('',(0.,0.,1.));
#530=DIRECTION('',(1.,0.,0.));
#531=DIRECTION('',(0.,0.,1.));
#532=DIRECTION('',(-1.,0.,0.));
#533=DIRECTION('',(0.,0.,-1.));
#534=DIRECTION('',(-1.,0.,0.));
#535=DIRECTION('',(0.,0.,-1.));
#536=DIRECTION('',(-1.,0.,0.));
#537=DIRECTION('',(0.,0.,-1.));
#538=DIRECTION('',(-1.,0.,0.));
#539=DIRECTION('',(0.,0.,-1.));
#540=DIRECTION('',(-1.,0.,0.));
#541=DIRECTION('',(0.,0.,-1.));
#542=DIRECTION('',(-1.,0.,0.));
#543=DIRECTION('',(0.,0.,-1.));
#544=DIRECTION('',(-1.,0.,0.));
#545=DIRECTION('',(0.,0.,-1.));
#546=DIRECTION('',(-1.,0.,0.));
#547=DIRECTION('',(0.,0.,1.));
#548=DIRECTION('',(1.,0.,8.690977840353E-17));
#549=DIRECTION('',(0.,0.,-1.));
#550=DIRECTION('',(-1.,0.,0.));
#551=DIRECTION('',(0.,0.,-1.));
#552=DIRECTION('',(-1.,0.,0.));
#553=DIRECTION('',(0.,0.,-1.));
#554=DIRECTION('',(-1.,0.,0.));
#555=DIRECTION('',(0.,0.,-1.));
#556=DIRECTION('',(-1.,0.,0.));
#557=DIRECTION('',(0.,0.,-1.));
#558=DIRECTION('',(-1.,0.,0.));
#559=DIRECTION('',(0.,0.,-1.));
#560=DIRECTION('',(-1.,0.,0.));
#561=DIRECTION('',(0.,0.,-1.));
#562=DIRECTION('',(-1.,0.,0.));
#563=DIRECTION('',(0.,0.,-1.));
#564=DIRECTION('',(-1.,0.,0.));
#565=DIRECTION('',(0.,0.,-1.));
#566=DIRECTION('',(-1.,0.,0.));
#567=DIRECTION('',(0.,0.,-1.));
#568=DIRECTION('',(-1.,0.,0.));
#569=DIRECTION('',(0.,0.,-1.));
#570=DIRECTION('',(-1.,0.,0.));
#571=DIRECTION('',(0.,0.,-1.));
#572=DIRECTION('',(-1.,0.,0.));
#573=DIRECTION('',(0.,0.,1.));
#574=DIRECTION('',(1.,0.,0.));
#575=DIRECTION('',(0.,0.,-1.));
#576=DIRECTION('',(-1.,0.,0.));
#577=DIRECTION('',(0.,0.,-1.));
#578=DIRECTION('',(-1.,0.,0.));
#579=DIRECTION('',(0.,0.,-1.));
#580=DIRECTION('',(1.,0.,0.));
#581=DIRECTION('',(0.,0.,-1.));
#582=DIRECTION('',(-1.,0.,0.));
#583=DIRECTION('',(0.,0.,-1.));
#584=DIRECTION('',(-1.,0.,0.));
#585=DIRECTION('',(0.,0.,-1.));
#586=DIRECTION('',(-1.,0.,0.));
#587=DIRECTION('',(0.,0.,1.));
#588=DIRECTION('',(-1.,0.,0.));
#589=DIRECTION('',(0.,0.,-1.));
#590=DIRECTION('',(-1.,0.,0.));
#591=DIRECTION('',(0.,0.,-1.));
#592=DIRECTION('',(-1.,0.,0.));
#593=DIRECTION('',(0.,0.,1.));
#594=DIRECTION('',(-1.,0.,0.));
#595=DIRECTION('',(0.,0.,-1.));
#596=DIRECTION('',(-1.,0.,0.));
#597=DIRECTION('',(0.,0.,-1.));
#598=DIRECTION('',(-1.,0.,0.));
#599=DIRECTION('',(0.,0.,1.));
#600=DIRECTION('',(1.,0.,0.));
#601=DIRECTION('',(0.,0.,-1.));
#602=DIRECTION('',(-1.,0.,0.));
#603=DIRECTION('',(0.,0.,1.));
#604=DIRECTION('',(-1.,0.,0.));
#605=DIRECTION('',(0.,0.,1.));
#606=DIRECTION('',(-1.,0.,0.));
#607=DIRECTION('',(0.,0.,1.));
#608=DIRECTION('',(-1.,0.,0.));
#609=DIRECTION('',(0.,0.,1.));
#610=DIRECTION('',(-1.,0.,0.));
#611=DIRECTION('',(0.,0.,1.));
#612=DIRECTION('',(-1.,0.,0.));
#613=DIRECTION('',(0.,0.,1.));
#614=DIRECTION('',(-1.,0.,0.));
#615=DIRECTION('',(0.,0.,1.));
#616=DIRECTION('',(-1.,0.,0.));
#617=DIRECTION('',(0.,0.,-1.));
#618=DIRECTION('',(1.,0.,0.));
#619=DIRECTION('',(0.,0.,1.));
#620=DIRECTION('',(-1.,0.,0.));
#621=DIRECTION('',(0.,0.,1.));
#622=DIRECTION('',(-1.,0.,0.));
#623=DIRECTION('',(0.,0.,1.));
#624=DIRECTION('',(-1.,0.,0.));
#625=DIRECTION('',(0.,0.,1.));
#626=DIRECTION('',(-1.,0.,0.));
#627=DIRECTION('',(0.,0.,1.));
#628=DIRECTION('',(-1.,0.,0.));
#629=DIRECTION('',(0.,0.,1.));
#630=DIRECTION('',(-1.,0.,0.));
#631=DIRECTION('',(0.,0.,1.));
#632=DIRECTION('',(-1.,0.,0.));
#633=DIRECTION('',(0.,0.,1.));
#634=DIRECTION('',(-1.,0.,0.));
#635=DIRECTION('',(0.,0.,1.));
#636=DIRECTION('',(-1.,0.,0.));
#637=DIRECTION('',(0.,0.,1.));
#638=DIRECTION('',(-1.,0.,0.));
#639=DIRECTION('',(0.,0.,1.));
#640=DIRECTION('',(-1.,0.,0.));
#641=DIRECTION('',(0.,0.,1.));
#642=DIRECTION('',(-1.,0.,0.));
#643=DIRECTION('',(0.,0.,-1.));
#644=DIRECTION('',(1.,0.,0.));
#645=DIRECTION('',(0.,0.,1.));
#646=DIRECTION('',(-1.,0.,0.));
#647=DIRECTION('',(0.,0.,1.));
#648=DIRECTION('',(-1.,0.,0.));
#649=DIRECTION('',(0.,0.,1.));
#650=DIRECTION('',(1.,0.,0.));
#651=DIRECTION('',(0.,0.,1.));
#652=DIRECTION('',(-1.,0.,-1.67882055271855E-16));
#653=DIRECTION('',(0.,0.,1.));
#654=DIRECTION('',(-1.,0.,0.));
#655=DIRECTION('',(0.,0.,1.));
#656=DIRECTION('',(-1.,0.,0.));
#657=DIRECTION('',(0.,0.,-1.));
#658=DIRECTION('',(1.,0.,0.));
#659=DIRECTION('',(0.,0.,-1.));
#660=DIRECTION('',(-1.,0.,0.));
#661=CARTESIAN_POINT('',(0.,0.,0.));
#662=CARTESIAN_POINT('',(0.,0.,0.));
#663=CARTESIAN_POINT('',(-126.35870419917,0.,0.));
#664=CARTESIAN_POINT('',(0.,0.,0.));
#665=CARTESIAN_POINT('',(-134.5,0.,0.));
#666=CARTESIAN_POINT('',(121.5,0.,0.));
#667=CARTESIAN_POINT('',(0.,0.,10.));
#668=CARTESIAN_POINT('',(-134.5,0.,10.));
#669=CARTESIAN_POINT('',(0.,0.,5.));
#670=CARTESIAN_POINT('',(0.,0.,8.17357554896529));
#671=CARTESIAN_POINT('',(-131.142088545995,0.,8.17357554896529));
#672=CARTESIAN_POINT('',(0.,0.,6.00000000000001));
#673=CARTESIAN_POINT('',(0.,0.,5.91321222551736));
#674=CARTESIAN_POINT('',(-129.678955727003,0.,5.91321222551736));
#675=CARTESIAN_POINT('',(0.,0.,8.17357554896529));
#676=CARTESIAN_POINT('',(0.,0.,7.));
#677=CARTESIAN_POINT('',(-126.,0.,7.));
#678=CARTESIAN_POINT('',(0.,0.,7.00000000000001));
#679=CARTESIAN_POINT('',(0.,0.,10.));
#680=CARTESIAN_POINT('',(-126.,0.,10.));
#681=CARTESIAN_POINT('',(0.,0.,0.));
#682=CARTESIAN_POINT('',(0.,0.,22.));
#683=CARTESIAN_POINT('',(-138.,0.,22.));
#684=CARTESIAN_POINT('',(0.,0.,10.));
#685=CARTESIAN_POINT('',(0.,0.,96.0000000000002));
#686=CARTESIAN_POINT('',(-138.,0.,96.0000000000002));
#687=CARTESIAN_POINT('',(0.,0.,59.));
#688=CARTESIAN_POINT('',(0.,0.,26.));
#689=CARTESIAN_POINT('',(-138.,0.,26.));
#690=CARTESIAN_POINT('',(0.,0.,92.0000000000001));
#691=CARTESIAN_POINT('',(-138.,0.,92.0000000000001));
#692=CARTESIAN_POINT('',(0.,0.,59.));
#693=CARTESIAN_POINT('',(0.,0.,25.9999999999998));
#694=CARTESIAN_POINT('',(-137.592683702897,0.,25.9999999999998));
#695=CARTESIAN_POINT('',(138.,0.,25.9999999999999));
#696=CARTESIAN_POINT('',(0.,0.,16.));
#697=CARTESIAN_POINT('',(-118.09909501328,0.,16.));
#698=CARTESIAN_POINT('',(0.,0.,1.99999999999978));
#699=CARTESIAN_POINT('',(0.,0.,4.75252985509356));
#700=CARTESIAN_POINT('',(120.489818594767,0.,4.75252985509356));
#701=CARTESIAN_POINT('',(0.,0.,16.));
#702=CARTESIAN_POINT('',(0.,0.,6.));
#703=CARTESIAN_POINT('',(0.,0.,91.9999999999998));
#704=CARTESIAN_POINT('',(-130.5,0.,91.9999999999998));
#705=CARTESIAN_POINT('',(0.,0.,113.));
#706=CARTESIAN_POINT('',(-130.5,0.,113.));
#707=CARTESIAN_POINT('',(0.,0.,102.5));
#708=CARTESIAN_POINT('',(0.,0.,95.9999999999998));
#709=CARTESIAN_POINT('',(-130.5,0.,95.9999999999998));
#710=CARTESIAN_POINT('',(0.,0.,109.));
#711=CARTESIAN_POINT('',(-130.5,0.,109.));
#712=CARTESIAN_POINT('',(0.,0.,102.5));
#713=CARTESIAN_POINT('',(130.5,0.,96.));
#714=CARTESIAN_POINT('',(138.,0.,91.9999999999999));
#715=CARTESIAN_POINT('',(0.,0.,204.999999999999));
#716=CARTESIAN_POINT('',(-126.35870419917,0.,204.999999999999));
#717=CARTESIAN_POINT('',(0.,0.,204.999999999999));
#718=CARTESIAN_POINT('',(-134.5,0.,204.999999999999));
#719=CARTESIAN_POINT('',(121.5,0.,204.999999999999));
#720=CARTESIAN_POINT('',(0.,0.,194.999999999999));
#721=CARTESIAN_POINT('',(-134.5,0.,194.999999999999));
#722=CARTESIAN_POINT('',(0.,0.,199.999999999999));
#723=CARTESIAN_POINT('',(0.,0.,196.826424451034));
#724=CARTESIAN_POINT('',(-131.142088545995,0.,196.826424451034));
#725=CARTESIAN_POINT('',(0.,0.,198.999999999999));
#726=CARTESIAN_POINT('',(0.,0.,199.086787774482));
#727=CARTESIAN_POINT('',(-129.678955727003,0.,199.086787774482));
#728=CARTESIAN_POINT('',(0.,0.,196.826424451034));
#729=CARTESIAN_POINT('',(0.,0.,197.999999999999));
#730=CARTESIAN_POINT('',(-126.,0.,197.999999999999));
#731=CARTESIAN_POINT('',(0.,0.,197.999999999999));
#732=CARTESIAN_POINT('',(0.,0.,194.999999999999));
#733=CARTESIAN_POINT('',(-126.,0.,194.999999999999));
#734=CARTESIAN_POINT('',(0.,0.,204.999999999999));
#735=CARTESIAN_POINT('',(0.,0.,182.999999999999));
#736=CARTESIAN_POINT('',(-138.,0.,182.999999999999));
#737=CARTESIAN_POINT('',(0.,0.,194.999999999999));
#738=CARTESIAN_POINT('',(0.,0.,108.999999999999));
#739=CARTESIAN_POINT('',(-138.,0.,108.999999999999));
#740=CARTESIAN_POINT('',(0.,0.,145.999999999999));
#741=CARTESIAN_POINT('',(0.,0.,178.999999999999));
#742=CARTESIAN_POINT('',(-138.,0.,178.999999999999));
#743=CARTESIAN_POINT('',(0.,0.,112.999999999999));
#744=CARTESIAN_POINT('',(-138.,0.,112.999999999999));
#745=CARTESIAN_POINT('',(0.,0.,145.999999999999));
#746=CARTESIAN_POINT('',(0.,0.,179.));
#747=CARTESIAN_POINT('',(-137.592683702897,0.,179.));
#748=CARTESIAN_POINT('',(138.,0.,179.));
#749=CARTESIAN_POINT('',(0.,0.,188.999999999999));
#750=CARTESIAN_POINT('',(-118.09909501328,0.,188.999999999999));
#751=CARTESIAN_POINT('',(0.,0.,203.));
#752=CARTESIAN_POINT('',(0.,0.,200.247470144906));
#753=CARTESIAN_POINT('',(120.489818594767,0.,200.247470144906));
#754=CARTESIAN_POINT('',(0.,0.,188.999999999999));
#755=CARTESIAN_POINT('',(0.,0.,198.999999999999));
#756=CARTESIAN_POINT('',(130.5,0.,108.999999999999));
#757=CARTESIAN_POINT('',(138.,0.,113.));
#758=CARTESIAN_POINT('',(-137.,0.,102.5));
#759=CARTESIAN_POINT('',(0.,0.,102.5));
#760=MECHANICAL_DESIGN_GEOMETRIC_PRESENTATION_REPRESENTATION('',(#87,#88),
#761);
#761=(
GEOMETRIC_REPRESENTATION_CONTEXT(3)
GLOBAL_UNCERTAINTY_ASSIGNED_CONTEXT((#762))
GLOBAL_UNIT_ASSIGNED_CONTEXT((#768,#764,#763))
REPRESENTATION_CONTEXT('6W-350x2-01','TOP_LEVEL_ASSEMBLY_PART')
);
#762=UNCERTAINTY_MEASURE_WITH_UNIT(LENGTH_MEASURE(2.E-5),#768,
'DISTANCE_ACCURACY_VALUE','Maximum Tolerance applied to model');
#763=(
NAMED_UNIT(*)
SI_UNIT($,.STERADIAN.)
SOLID_ANGLE_UNIT()
);
#764=(
CONVERSION_BASED_UNIT('DEGREE',#766)
NAMED_UNIT(#765)
PLANE_ANGLE_UNIT()
);
#765=DIMENSIONAL_EXPONENTS(0.,0.,0.,0.,0.,0.,0.);
#766=PLANE_ANGLE_MEASURE_WITH_UNIT(PLANE_ANGLE_MEASURE(0.0174532925),#767);
#767=(
NAMED_UNIT(*)
PLANE_ANGLE_UNIT()
SI_UNIT($,.RADIAN.)
);
#768=(
LENGTH_UNIT()
NAMED_UNIT(*)
SI_UNIT(.MILLI.,.METRE.)
);
ENDSEC;
END-ISO-10303-21;
